ISO-10303-21;
HEADER;
/* Generated by software containing ST-Developer
 * from STEP Tools, Inc. (www.steptools.com) 
 */

FILE_DESCRIPTION(
/* description */ (''),
/* implementation_level */ '2;1');

FILE_NAME(
/* name */ 
'C:/Users/dshur/OneDrive/Desktop/design and code/the circuit cover -in
side the lid-.step',
/* time_stamp */ '2020-08-09T03:15:37+03:00',
/* author */ (''),
/* organization */ (''),
/* preprocessor_version */ 'ST-DEVELOPER v18',
/* originating_system */ 'Autodesk Translation Framework v8.12.0.6',
/* authorisation */ '');

FILE_SCHEMA (('AUTOMOTIVE_DESIGN { 1 0 10303 214 3 1 1 }'));
ENDSEC;

DATA;
#10=MECHANICAL_DESIGN_GEOMETRIC_PRESENTATION_REPRESENTATION('',(#13),#607);
#11=SHAPE_REPRESENTATION_RELATIONSHIP('SRR','None',#614,#12);
#12=ADVANCED_BREP_SHAPE_REPRESENTATION('',(#14),#606);
#13=STYLED_ITEM('',(#623),#14);
#14=MANIFOLD_SOLID_BREP('Body3',#355);
#15=FACE_BOUND('',#66,.T.);
#16=FACE_BOUND('',#67,.T.);
#17=FACE_BOUND('',#68,.T.);
#18=FACE_BOUND('',#70,.T.);
#19=FACE_BOUND('',#71,.T.);
#20=FACE_BOUND('',#72,.T.);
#21=PLANE('',#381);
#22=PLANE('',#382);
#23=PLANE('',#383);
#24=PLANE('',#384);
#25=PLANE('',#385);
#26=PLANE('',#386);
#27=PLANE('',#387);
#28=PLANE('',#388);
#29=PLANE('',#401);
#30=PLANE('',#402);
#31=FACE_OUTER_BOUND('',#49,.T.);
#32=FACE_OUTER_BOUND('',#50,.T.);
#33=FACE_OUTER_BOUND('',#51,.T.);
#34=FACE_OUTER_BOUND('',#52,.T.);
#35=FACE_OUTER_BOUND('',#53,.T.);
#36=FACE_OUTER_BOUND('',#54,.T.);
#37=FACE_OUTER_BOUND('',#55,.T.);
#38=FACE_OUTER_BOUND('',#56,.T.);
#39=FACE_OUTER_BOUND('',#57,.T.);
#40=FACE_OUTER_BOUND('',#58,.T.);
#41=FACE_OUTER_BOUND('',#59,.T.);
#42=FACE_OUTER_BOUND('',#60,.T.);
#43=FACE_OUTER_BOUND('',#61,.T.);
#44=FACE_OUTER_BOUND('',#62,.T.);
#45=FACE_OUTER_BOUND('',#63,.T.);
#46=FACE_OUTER_BOUND('',#64,.T.);
#47=FACE_OUTER_BOUND('',#65,.T.);
#48=FACE_OUTER_BOUND('',#69,.T.);
#49=EDGE_LOOP('',(#233,#234,#235,#236));
#50=EDGE_LOOP('',(#237,#238,#239,#240));
#51=EDGE_LOOP('',(#241,#242,#243,#244));
#52=EDGE_LOOP('',(#245,#246,#247,#248));
#53=EDGE_LOOP('',(#249,#250,#251,#252));
#54=EDGE_LOOP('',(#253,#254,#255,#256));
#55=EDGE_LOOP('',(#257,#258,#259,#260));
#56=EDGE_LOOP('',(#261,#262,#263,#264));
#57=EDGE_LOOP('',(#265,#266,#267,#268));
#58=EDGE_LOOP('',(#269,#270,#271,#272));
#59=EDGE_LOOP('',(#273,#274,#275,#276));
#60=EDGE_LOOP('',(#277,#278,#279,#280));
#61=EDGE_LOOP('',(#281,#282,#283,#284));
#62=EDGE_LOOP('',(#285,#286,#287,#288));
#63=EDGE_LOOP('',(#289,#290,#291,#292));
#64=EDGE_LOOP('',(#293,#294,#295,#296));
#65=EDGE_LOOP('',(#297,#298,#299,#300));
#66=EDGE_LOOP('',(#301,#302,#303,#304));
#67=EDGE_LOOP('',(#305,#306,#307,#308));
#68=EDGE_LOOP('',(#309,#310,#311,#312));
#69=EDGE_LOOP('',(#313,#314,#315,#316));
#70=EDGE_LOOP('',(#317,#318,#319,#320));
#71=EDGE_LOOP('',(#321,#322,#323,#324));
#72=EDGE_LOOP('',(#325,#326,#327,#328));
#73=LINE('',#511,#105);
#74=LINE('',#514,#106);
#75=LINE('',#520,#107);
#76=LINE('',#526,#108);
#77=LINE('',#533,#109);
#78=LINE('',#535,#110);
#79=LINE('',#537,#111);
#80=LINE('',#538,#112);
#81=LINE('',#541,#113);
#82=LINE('',#543,#114);
#83=LINE('',#544,#115);
#84=LINE('',#547,#116);
#85=LINE('',#549,#117);
#86=LINE('',#550,#118);
#87=LINE('',#552,#119);
#88=LINE('',#553,#120);
#89=LINE('',#557,#121);
#90=LINE('',#559,#122);
#91=LINE('',#561,#123);
#92=LINE('',#562,#124);
#93=LINE('',#565,#125);
#94=LINE('',#567,#126);
#95=LINE('',#568,#127);
#96=LINE('',#571,#128);
#97=LINE('',#573,#129);
#98=LINE('',#574,#130);
#99=LINE('',#576,#131);
#100=LINE('',#577,#132);
#101=LINE('',#583,#133);
#102=LINE('',#586,#134);
#103=LINE('',#592,#135);
#104=LINE('',#598,#136);
#105=VECTOR('',#409,10.);
#106=VECTOR('',#412,10.);
#107=VECTOR('',#419,10.);
#108=VECTOR('',#426,10.);
#109=VECTOR('',#435,10.);
#110=VECTOR('',#436,10.);
#111=VECTOR('',#437,10.);
#112=VECTOR('',#438,10.);
#113=VECTOR('',#441,10.);
#114=VECTOR('',#442,10.);
#115=VECTOR('',#443,10.);
#116=VECTOR('',#446,10.);
#117=VECTOR('',#447,10.);
#118=VECTOR('',#448,10.);
#119=VECTOR('',#451,10.);
#120=VECTOR('',#452,10.);
#121=VECTOR('',#455,10.);
#122=VECTOR('',#456,10.);
#123=VECTOR('',#457,10.);
#124=VECTOR('',#458,10.);
#125=VECTOR('',#461,10.);
#126=VECTOR('',#462,10.);
#127=VECTOR('',#463,10.);
#128=VECTOR('',#466,10.);
#129=VECTOR('',#467,10.);
#130=VECTOR('',#468,10.);
#131=VECTOR('',#471,10.);
#132=VECTOR('',#472,10.);
#133=VECTOR('',#477,10.);
#134=VECTOR('',#480,10.);
#135=VECTOR('',#487,10.);
#136=VECTOR('',#494,10.);
#137=CIRCLE('',#370,4.18704608678818);
#138=CIRCLE('',#371,4.18704608678818);
#139=CIRCLE('',#373,4.18704608678818);
#140=CIRCLE('',#374,4.18704608678818);
#141=CIRCLE('',#376,4.18704608678818);
#142=CIRCLE('',#377,4.18704608678818);
#143=CIRCLE('',#379,4.18704608678816);
#144=CIRCLE('',#380,4.18704608678816);
#145=CIRCLE('',#390,32.0000029087067);
#146=CIRCLE('',#391,32.0000029087067);
#147=CIRCLE('',#393,32.0000029087067);
#148=CIRCLE('',#394,32.0000029087067);
#149=CIRCLE('',#396,32.0000029087067);
#150=CIRCLE('',#397,32.0000029087067);
#151=CIRCLE('',#399,32.0000029087067);
#152=CIRCLE('',#400,32.0000029087067);
#153=VERTEX_POINT('',#507);
#154=VERTEX_POINT('',#508);
#155=VERTEX_POINT('',#510);
#156=VERTEX_POINT('',#512);
#157=VERTEX_POINT('',#516);
#158=VERTEX_POINT('',#518);
#159=VERTEX_POINT('',#522);
#160=VERTEX_POINT('',#524);
#161=VERTEX_POINT('',#531);
#162=VERTEX_POINT('',#532);
#163=VERTEX_POINT('',#534);
#164=VERTEX_POINT('',#536);
#165=VERTEX_POINT('',#540);
#166=VERTEX_POINT('',#542);
#167=VERTEX_POINT('',#546);
#168=VERTEX_POINT('',#548);
#169=VERTEX_POINT('',#555);
#170=VERTEX_POINT('',#556);
#171=VERTEX_POINT('',#558);
#172=VERTEX_POINT('',#560);
#173=VERTEX_POINT('',#564);
#174=VERTEX_POINT('',#566);
#175=VERTEX_POINT('',#570);
#176=VERTEX_POINT('',#572);
#177=VERTEX_POINT('',#579);
#178=VERTEX_POINT('',#580);
#179=VERTEX_POINT('',#582);
#180=VERTEX_POINT('',#584);
#181=VERTEX_POINT('',#588);
#182=VERTEX_POINT('',#590);
#183=VERTEX_POINT('',#594);
#184=VERTEX_POINT('',#596);
#185=EDGE_CURVE('',#153,#154,#137,.T.);
#186=EDGE_CURVE('',#154,#155,#73,.T.);
#187=EDGE_CURVE('',#156,#155,#138,.T.);
#188=EDGE_CURVE('',#153,#156,#74,.T.);
#189=EDGE_CURVE('',#157,#153,#139,.T.);
#190=EDGE_CURVE('',#158,#156,#140,.T.);
#191=EDGE_CURVE('',#157,#158,#75,.T.);
#192=EDGE_CURVE('',#159,#157,#141,.T.);
#193=EDGE_CURVE('',#160,#158,#142,.T.);
#194=EDGE_CURVE('',#159,#160,#76,.T.);
#195=EDGE_CURVE('',#154,#159,#143,.T.);
#196=EDGE_CURVE('',#155,#160,#144,.T.);
#197=EDGE_CURVE('',#161,#162,#77,.T.);
#198=EDGE_CURVE('',#162,#163,#78,.T.);
#199=EDGE_CURVE('',#164,#163,#79,.T.);
#200=EDGE_CURVE('',#161,#164,#80,.T.);
#201=EDGE_CURVE('',#165,#161,#81,.T.);
#202=EDGE_CURVE('',#166,#164,#82,.T.);
#203=EDGE_CURVE('',#165,#166,#83,.T.);
#204=EDGE_CURVE('',#167,#165,#84,.T.);
#205=EDGE_CURVE('',#168,#166,#85,.T.);
#206=EDGE_CURVE('',#167,#168,#86,.T.);
#207=EDGE_CURVE('',#162,#167,#87,.T.);
#208=EDGE_CURVE('',#163,#168,#88,.T.);
#209=EDGE_CURVE('',#169,#170,#89,.T.);
#210=EDGE_CURVE('',#170,#171,#90,.T.);
#211=EDGE_CURVE('',#172,#171,#91,.T.);
#212=EDGE_CURVE('',#169,#172,#92,.T.);
#213=EDGE_CURVE('',#173,#169,#93,.T.);
#214=EDGE_CURVE('',#174,#172,#94,.T.);
#215=EDGE_CURVE('',#173,#174,#95,.T.);
#216=EDGE_CURVE('',#175,#173,#96,.T.);
#217=EDGE_CURVE('',#176,#174,#97,.T.);
#218=EDGE_CURVE('',#175,#176,#98,.T.);
#219=EDGE_CURVE('',#170,#175,#99,.T.);
#220=EDGE_CURVE('',#171,#176,#100,.T.);
#221=EDGE_CURVE('',#177,#178,#145,.T.);
#222=EDGE_CURVE('',#177,#179,#101,.T.);
#223=EDGE_CURVE('',#180,#179,#146,.T.);
#224=EDGE_CURVE('',#178,#180,#102,.T.);
#225=EDGE_CURVE('',#178,#181,#147,.T.);
#226=EDGE_CURVE('',#182,#180,#148,.T.);
#227=EDGE_CURVE('',#181,#182,#103,.T.);
#228=EDGE_CURVE('',#181,#183,#149,.T.);
#229=EDGE_CURVE('',#184,#182,#150,.T.);
#230=EDGE_CURVE('',#183,#184,#104,.T.);
#231=EDGE_CURVE('',#183,#177,#151,.T.);
#232=EDGE_CURVE('',#179,#184,#152,.T.);
#233=ORIENTED_EDGE('',*,*,#185,.T.);
#234=ORIENTED_EDGE('',*,*,#186,.T.);
#235=ORIENTED_EDGE('',*,*,#187,.F.);
#236=ORIENTED_EDGE('',*,*,#188,.F.);
#237=ORIENTED_EDGE('',*,*,#189,.T.);
#238=ORIENTED_EDGE('',*,*,#188,.T.);
#239=ORIENTED_EDGE('',*,*,#190,.F.);
#240=ORIENTED_EDGE('',*,*,#191,.F.);
#241=ORIENTED_EDGE('',*,*,#192,.T.);
#242=ORIENTED_EDGE('',*,*,#191,.T.);
#243=ORIENTED_EDGE('',*,*,#193,.F.);
#244=ORIENTED_EDGE('',*,*,#194,.F.);
#245=ORIENTED_EDGE('',*,*,#195,.T.);
#246=ORIENTED_EDGE('',*,*,#194,.T.);
#247=ORIENTED_EDGE('',*,*,#196,.F.);
#248=ORIENTED_EDGE('',*,*,#186,.F.);
#249=ORIENTED_EDGE('',*,*,#197,.T.);
#250=ORIENTED_EDGE('',*,*,#198,.T.);
#251=ORIENTED_EDGE('',*,*,#199,.F.);
#252=ORIENTED_EDGE('',*,*,#200,.F.);
#253=ORIENTED_EDGE('',*,*,#201,.T.);
#254=ORIENTED_EDGE('',*,*,#200,.T.);
#255=ORIENTED_EDGE('',*,*,#202,.F.);
#256=ORIENTED_EDGE('',*,*,#203,.F.);
#257=ORIENTED_EDGE('',*,*,#204,.T.);
#258=ORIENTED_EDGE('',*,*,#203,.T.);
#259=ORIENTED_EDGE('',*,*,#205,.F.);
#260=ORIENTED_EDGE('',*,*,#206,.F.);
#261=ORIENTED_EDGE('',*,*,#207,.T.);
#262=ORIENTED_EDGE('',*,*,#206,.T.);
#263=ORIENTED_EDGE('',*,*,#208,.F.);
#264=ORIENTED_EDGE('',*,*,#198,.F.);
#265=ORIENTED_EDGE('',*,*,#209,.T.);
#266=ORIENTED_EDGE('',*,*,#210,.T.);
#267=ORIENTED_EDGE('',*,*,#211,.F.);
#268=ORIENTED_EDGE('',*,*,#212,.F.);
#269=ORIENTED_EDGE('',*,*,#213,.T.);
#270=ORIENTED_EDGE('',*,*,#212,.T.);
#271=ORIENTED_EDGE('',*,*,#214,.F.);
#272=ORIENTED_EDGE('',*,*,#215,.F.);
#273=ORIENTED_EDGE('',*,*,#216,.T.);
#274=ORIENTED_EDGE('',*,*,#215,.T.);
#275=ORIENTED_EDGE('',*,*,#217,.F.);
#276=ORIENTED_EDGE('',*,*,#218,.F.);
#277=ORIENTED_EDGE('',*,*,#219,.T.);
#278=ORIENTED_EDGE('',*,*,#218,.T.);
#279=ORIENTED_EDGE('',*,*,#220,.F.);
#280=ORIENTED_EDGE('',*,*,#210,.F.);
#281=ORIENTED_EDGE('',*,*,#221,.F.);
#282=ORIENTED_EDGE('',*,*,#222,.T.);
#283=ORIENTED_EDGE('',*,*,#223,.F.);
#284=ORIENTED_EDGE('',*,*,#224,.F.);
#285=ORIENTED_EDGE('',*,*,#225,.F.);
#286=ORIENTED_EDGE('',*,*,#224,.T.);
#287=ORIENTED_EDGE('',*,*,#226,.F.);
#288=ORIENTED_EDGE('',*,*,#227,.F.);
#289=ORIENTED_EDGE('',*,*,#228,.F.);
#290=ORIENTED_EDGE('',*,*,#227,.T.);
#291=ORIENTED_EDGE('',*,*,#229,.F.);
#292=ORIENTED_EDGE('',*,*,#230,.F.);
#293=ORIENTED_EDGE('',*,*,#231,.F.);
#294=ORIENTED_EDGE('',*,*,#230,.T.);
#295=ORIENTED_EDGE('',*,*,#232,.F.);
#296=ORIENTED_EDGE('',*,*,#222,.F.);
#297=ORIENTED_EDGE('',*,*,#232,.T.);
#298=ORIENTED_EDGE('',*,*,#229,.T.);
#299=ORIENTED_EDGE('',*,*,#226,.T.);
#300=ORIENTED_EDGE('',*,*,#223,.T.);
#301=ORIENTED_EDGE('',*,*,#220,.T.);
#302=ORIENTED_EDGE('',*,*,#217,.T.);
#303=ORIENTED_EDGE('',*,*,#214,.T.);
#304=ORIENTED_EDGE('',*,*,#211,.T.);
#305=ORIENTED_EDGE('',*,*,#208,.T.);
#306=ORIENTED_EDGE('',*,*,#205,.T.);
#307=ORIENTED_EDGE('',*,*,#202,.T.);
#308=ORIENTED_EDGE('',*,*,#199,.T.);
#309=ORIENTED_EDGE('',*,*,#196,.T.);
#310=ORIENTED_EDGE('',*,*,#193,.T.);
#311=ORIENTED_EDGE('',*,*,#190,.T.);
#312=ORIENTED_EDGE('',*,*,#187,.T.);
#313=ORIENTED_EDGE('',*,*,#231,.T.);
#314=ORIENTED_EDGE('',*,*,#221,.T.);
#315=ORIENTED_EDGE('',*,*,#225,.T.);
#316=ORIENTED_EDGE('',*,*,#228,.T.);
#317=ORIENTED_EDGE('',*,*,#219,.F.);
#318=ORIENTED_EDGE('',*,*,#209,.F.);
#319=ORIENTED_EDGE('',*,*,#213,.F.);
#320=ORIENTED_EDGE('',*,*,#216,.F.);
#321=ORIENTED_EDGE('',*,*,#207,.F.);
#322=ORIENTED_EDGE('',*,*,#197,.F.);
#323=ORIENTED_EDGE('',*,*,#201,.F.);
#324=ORIENTED_EDGE('',*,*,#204,.F.);
#325=ORIENTED_EDGE('',*,*,#195,.F.);
#326=ORIENTED_EDGE('',*,*,#185,.F.);
#327=ORIENTED_EDGE('',*,*,#189,.F.);
#328=ORIENTED_EDGE('',*,*,#192,.F.);
#329=CYLINDRICAL_SURFACE('',#369,4.18704608678818);
#330=CYLINDRICAL_SURFACE('',#372,4.18704608678818);
#331=CYLINDRICAL_SURFACE('',#375,4.18704608678818);
#332=CYLINDRICAL_SURFACE('',#378,4.18704608678816);
#333=CYLINDRICAL_SURFACE('',#389,32.0000029087067);
#334=CYLINDRICAL_SURFACE('',#392,32.0000029087067);
#335=CYLINDRICAL_SURFACE('',#395,32.0000029087067);
#336=CYLINDRICAL_SURFACE('',#398,32.0000029087067);
#337=ADVANCED_FACE('',(#31),#329,.F.);
#338=ADVANCED_FACE('',(#32),#330,.F.);
#339=ADVANCED_FACE('',(#33),#331,.F.);
#340=ADVANCED_FACE('',(#34),#332,.F.);
#341=ADVANCED_FACE('',(#35),#21,.T.);
#342=ADVANCED_FACE('',(#36),#22,.T.);
#343=ADVANCED_FACE('',(#37),#23,.T.);
#344=ADVANCED_FACE('',(#38),#24,.T.);
#345=ADVANCED_FACE('',(#39),#25,.T.);
#346=ADVANCED_FACE('',(#40),#26,.T.);
#347=ADVANCED_FACE('',(#41),#27,.T.);
#348=ADVANCED_FACE('',(#42),#28,.T.);
#349=ADVANCED_FACE('',(#43),#333,.T.);
#350=ADVANCED_FACE('',(#44),#334,.T.);
#351=ADVANCED_FACE('',(#45),#335,.T.);
#352=ADVANCED_FACE('',(#46),#336,.T.);
#353=ADVANCED_FACE('',(#47,#15,#16,#17),#29,.T.);
#354=ADVANCED_FACE('',(#48,#18,#19,#20),#30,.F.);
#355=CLOSED_SHELL('',(#337,#338,#339,#340,#341,#342,#343,#344,#345,#346,
#347,#348,#349,#350,#351,#352,#353,#354));
#356=DERIVED_UNIT_ELEMENT(#358,1.);
#357=DERIVED_UNIT_ELEMENT(#609,3.);
#358=(
MASS_UNIT()
NAMED_UNIT(*)
SI_UNIT(.KILO.,.GRAM.)
);
#359=DERIVED_UNIT((#356,#357));
#360=MEASURE_REPRESENTATION_ITEM('density measure',
POSITIVE_RATIO_MEASURE(7850.),#359);
#361=PROPERTY_DEFINITION_REPRESENTATION(#366,#363);
#362=PROPERTY_DEFINITION_REPRESENTATION(#367,#364);
#363=REPRESENTATION('material name',(#365),#606);
#364=REPRESENTATION('density',(#360),#606);
#365=DESCRIPTIVE_REPRESENTATION_ITEM('Steel','Steel');
#366=PROPERTY_DEFINITION('material property','material name',#616);
#367=PROPERTY_DEFINITION('material property','density of part',#616);
#368=AXIS2_PLACEMENT_3D('placement',#505,#403,#404);
#369=AXIS2_PLACEMENT_3D('',#506,#405,#406);
#370=AXIS2_PLACEMENT_3D('',#509,#407,#408);
#371=AXIS2_PLACEMENT_3D('',#513,#410,#411);
#372=AXIS2_PLACEMENT_3D('',#515,#413,#414);
#373=AXIS2_PLACEMENT_3D('',#517,#415,#416);
#374=AXIS2_PLACEMENT_3D('',#519,#417,#418);
#375=AXIS2_PLACEMENT_3D('',#521,#420,#421);
#376=AXIS2_PLACEMENT_3D('',#523,#422,#423);
#377=AXIS2_PLACEMENT_3D('',#525,#424,#425);
#378=AXIS2_PLACEMENT_3D('',#527,#427,#428);
#379=AXIS2_PLACEMENT_3D('',#528,#429,#430);
#380=AXIS2_PLACEMENT_3D('',#529,#431,#432);
#381=AXIS2_PLACEMENT_3D('',#530,#433,#434);
#382=AXIS2_PLACEMENT_3D('',#539,#439,#440);
#383=AXIS2_PLACEMENT_3D('',#545,#444,#445);
#384=AXIS2_PLACEMENT_3D('',#551,#449,#450);
#385=AXIS2_PLACEMENT_3D('',#554,#453,#454);
#386=AXIS2_PLACEMENT_3D('',#563,#459,#460);
#387=AXIS2_PLACEMENT_3D('',#569,#464,#465);
#388=AXIS2_PLACEMENT_3D('',#575,#469,#470);
#389=AXIS2_PLACEMENT_3D('',#578,#473,#474);
#390=AXIS2_PLACEMENT_3D('',#581,#475,#476);
#391=AXIS2_PLACEMENT_3D('',#585,#478,#479);
#392=AXIS2_PLACEMENT_3D('',#587,#481,#482);
#393=AXIS2_PLACEMENT_3D('',#589,#483,#484);
#394=AXIS2_PLACEMENT_3D('',#591,#485,#486);
#395=AXIS2_PLACEMENT_3D('',#593,#488,#489);
#396=AXIS2_PLACEMENT_3D('',#595,#490,#491);
#397=AXIS2_PLACEMENT_3D('',#597,#492,#493);
#398=AXIS2_PLACEMENT_3D('',#599,#495,#496);
#399=AXIS2_PLACEMENT_3D('',#600,#497,#498);
#400=AXIS2_PLACEMENT_3D('',#601,#499,#500);
#401=AXIS2_PLACEMENT_3D('',#602,#501,#502);
#402=AXIS2_PLACEMENT_3D('',#603,#503,#504);
#403=DIRECTION('axis',(0.,0.,1.));
#404=DIRECTION('refdir',(1.,0.,0.));
#405=DIRECTION('center_axis',(0.,1.,0.));
#406=DIRECTION('ref_axis',(0.999999998600323,0.,5.29089254202443E-5));
#407=DIRECTION('center_axis',(0.,-1.,0.));
#408=DIRECTION('ref_axis',(0.999999998600323,0.,5.29089254202443E-5));
#409=DIRECTION('',(0.,1.,0.));
#410=DIRECTION('center_axis',(0.,-1.,0.));
#411=DIRECTION('ref_axis',(0.999999998600323,0.,5.29089254202443E-5));
#412=DIRECTION('',(0.,1.,0.));
#413=DIRECTION('center_axis',(0.,1.,0.));
#414=DIRECTION('ref_axis',(-7.05108584898187E-5,0.,-0.999999997514109));
#415=DIRECTION('center_axis',(0.,-1.,0.));
#416=DIRECTION('ref_axis',(-7.05108584898187E-5,0.,-0.999999997514109));
#417=DIRECTION('center_axis',(0.,-1.,0.));
#418=DIRECTION('ref_axis',(-7.05108584898187E-5,0.,-0.999999997514109));
#419=DIRECTION('',(0.,1.,0.));
#420=DIRECTION('center_axis',(0.,1.,0.));
#421=DIRECTION('ref_axis',(-0.999999997514186,0.,7.05097722746286E-5));
#422=DIRECTION('center_axis',(0.,-1.,0.));
#423=DIRECTION('ref_axis',(-0.999999997514186,0.,7.05097722746286E-5));
#424=DIRECTION('center_axis',(0.,-1.,0.));
#425=DIRECTION('ref_axis',(-0.999999997514186,0.,7.05097722746286E-5));
#426=DIRECTION('',(0.,1.,0.));
#427=DIRECTION('center_axis',(0.,1.,0.));
#428=DIRECTION('ref_axis',(-5.29100114975532E-5,0.,0.999999998600265));
#429=DIRECTION('center_axis',(0.,-1.,0.));
#430=DIRECTION('ref_axis',(-5.29100114975532E-5,0.,0.999999998600265));
#431=DIRECTION('center_axis',(0.,-1.,0.));
#432=DIRECTION('ref_axis',(-5.29100114975532E-5,0.,0.999999998600265));
#433=DIRECTION('center_axis',(-1.,0.,0.));
#434=DIRECTION('ref_axis',(0.,0.,1.));
#435=DIRECTION('',(0.,0.,1.));
#436=DIRECTION('',(0.,1.,0.));
#437=DIRECTION('',(0.,0.,1.));
#438=DIRECTION('',(0.,1.,0.));
#439=DIRECTION('center_axis',(0.,0.,1.));
#440=DIRECTION('ref_axis',(1.,0.,0.));
#441=DIRECTION('',(1.,0.,0.));
#442=DIRECTION('',(1.,0.,0.));
#443=DIRECTION('',(0.,1.,0.));
#444=DIRECTION('center_axis',(1.,0.,0.));
#445=DIRECTION('ref_axis',(0.,0.,-1.));
#446=DIRECTION('',(0.,0.,-1.));
#447=DIRECTION('',(0.,0.,-1.));
#448=DIRECTION('',(0.,1.,0.));
#449=DIRECTION('center_axis',(0.,0.,-1.));
#450=DIRECTION('ref_axis',(-1.,0.,0.));
#451=DIRECTION('',(-1.,0.,0.));
#452=DIRECTION('',(-1.,0.,0.));
#453=DIRECTION('center_axis',(-1.,0.,0.));
#454=DIRECTION('ref_axis',(0.,0.,1.));
#455=DIRECTION('',(0.,0.,1.));
#456=DIRECTION('',(0.,1.,0.));
#457=DIRECTION('',(0.,0.,1.));
#458=DIRECTION('',(0.,1.,0.));
#459=DIRECTION('center_axis',(0.,0.,1.));
#460=DIRECTION('ref_axis',(1.,0.,0.));
#461=DIRECTION('',(1.,0.,0.));
#462=DIRECTION('',(1.,0.,0.));
#463=DIRECTION('',(0.,1.,0.));
#464=DIRECTION('center_axis',(1.,0.,0.));
#465=DIRECTION('ref_axis',(0.,0.,-1.));
#466=DIRECTION('',(0.,0.,-1.));
#467=DIRECTION('',(0.,0.,-1.));
#468=DIRECTION('',(0.,1.,0.));
#469=DIRECTION('center_axis',(0.,0.,-1.));
#470=DIRECTION('ref_axis',(-1.,0.,0.));
#471=DIRECTION('',(-1.,0.,0.));
#472=DIRECTION('',(-1.,0.,0.));
#473=DIRECTION('center_axis',(0.,1.,0.));
#474=DIRECTION('ref_axis',(1.26793908886453E-5,0.,-0.999999999919617));
#475=DIRECTION('center_axis',(0.,-1.,0.));
#476=DIRECTION('ref_axis',(1.26793908886453E-5,0.,-0.999999999919617));
#477=DIRECTION('',(0.,1.,0.));
#478=DIRECTION('center_axis',(0.,1.,0.));
#479=DIRECTION('ref_axis',(1.26793908886453E-5,0.,-0.999999999919617));
#480=DIRECTION('',(0.,1.,0.));
#481=DIRECTION('center_axis',(0.,1.,0.));
#482=DIRECTION('ref_axis',(0.999999999993981,0.,-3.4695670992477E-6));
#483=DIRECTION('center_axis',(0.,-1.,0.));
#484=DIRECTION('ref_axis',(0.999999999993981,0.,-3.4695670992477E-6));
#485=DIRECTION('center_axis',(0.,1.,0.));
#486=DIRECTION('ref_axis',(0.999999999993981,0.,-3.4695670992477E-6));
#487=DIRECTION('',(0.,1.,0.));
#488=DIRECTION('center_axis',(0.,1.,0.));
#489=DIRECTION('ref_axis',(3.46949273471216E-6,0.,0.999999999993981));
#490=DIRECTION('center_axis',(0.,-1.,0.));
#491=DIRECTION('ref_axis',(3.46949273471216E-6,0.,0.999999999993981));
#492=DIRECTION('center_axis',(0.,1.,0.));
#493=DIRECTION('ref_axis',(3.46949273471216E-6,0.,0.999999999993981));
#494=DIRECTION('',(0.,1.,0.));
#495=DIRECTION('center_axis',(0.,1.,0.));
#496=DIRECTION('ref_axis',(-0.999999999993981,0.,3.46949273471216E-6));
#497=DIRECTION('center_axis',(0.,-1.,0.));
#498=DIRECTION('ref_axis',(-0.999999999993981,0.,3.46949273471216E-6));
#499=DIRECTION('center_axis',(0.,1.,0.));
#500=DIRECTION('ref_axis',(-0.999999999993981,0.,3.46949273471216E-6));
#501=DIRECTION('center_axis',(0.,1.,0.));
#502=DIRECTION('ref_axis',(1.,0.,0.));
#503=DIRECTION('center_axis',(0.,1.,0.));
#504=DIRECTION('ref_axis',(1.,0.,0.));
#505=CARTESIAN_POINT('',(0.,0.,0.));
#506=CARTESIAN_POINT('Origin',(-29.6987368580443,0.,-42.1152163386952));
#507=CARTESIAN_POINT('',(-25.5116907771167,0.,-42.1149948065861));
#508=CARTESIAN_POINT('',(-29.6990320857104,0.,-37.9281702623153));
#509=CARTESIAN_POINT('Origin',(-29.6987368580443,0.,-42.1152163386952));
#510=CARTESIAN_POINT('',(-29.6990320857104,2.2,-37.9281702623153));
#511=CARTESIAN_POINT('',(-29.6990320857104,0.,-37.9281702623153));
#512=CARTESIAN_POINT('',(-25.5116907771167,2.2,-42.1149948065861));
#513=CARTESIAN_POINT('Origin',(-29.6987368580443,2.2,-42.1152163386952));
#514=CARTESIAN_POINT('',(-25.5116907771167,0.,-42.1149948065861));
#515=CARTESIAN_POINT('Origin',(-29.6987368534963,0.,-42.1152900388002));
#516=CARTESIAN_POINT('',(-29.6990320857104,0.,-46.3023361151799));
#517=CARTESIAN_POINT('Origin',(-29.6987368534963,0.,-42.1152900388002));
#518=CARTESIAN_POINT('',(-29.6990320857104,2.2,-46.3023361151799));
#519=CARTESIAN_POINT('Origin',(-29.6987368534963,2.2,-42.1152900388002));
#520=CARTESIAN_POINT('',(-29.6990320857104,0.,-46.3023361151799));
#521=CARTESIAN_POINT('Origin',(-29.6988105536013,0.,-42.1152900342522));
#522=CARTESIAN_POINT('',(-33.8858566299813,0.,-42.1149948065861));
#523=CARTESIAN_POINT('Origin',(-29.6988105536013,0.,-42.1152900342522));
#524=CARTESIAN_POINT('',(-33.8858566299813,2.2,-42.1149948065861));
#525=CARTESIAN_POINT('Origin',(-29.6988105536013,2.2,-42.1152900342522));
#526=CARTESIAN_POINT('',(-33.8858566299813,0.,-42.1149948065861));
#527=CARTESIAN_POINT('Origin',(-29.6988105490538,0.,-42.1152163432427));
#528=CARTESIAN_POINT('Origin',(-29.6988105490538,0.,-42.1152163432427));
#529=CARTESIAN_POINT('Origin',(-29.6988105490538,2.2,-42.1152163432427));
#530=CARTESIAN_POINT('Origin',(-35.5730921443042,0.,-49.4964563951278));
#531=CARTESIAN_POINT('',(-35.5730921443042,0.,-49.4964563951278));
#532=CARTESIAN_POINT('',(-35.5730921443042,0.,-41.7842656399194));
#533=CARTESIAN_POINT('',(-35.5730921443042,0.,-49.4964563951278));
#534=CARTESIAN_POINT('',(-35.5730921443042,2.2,-41.7842656399194));
#535=CARTESIAN_POINT('',(-35.5730921443042,0.,-41.7842656399194));
#536=CARTESIAN_POINT('',(-35.5730921443042,2.2,-49.4964563951278));
#537=CARTESIAN_POINT('',(-35.5730921443042,2.2,-49.4964563951278));
#538=CARTESIAN_POINT('',(-35.5730921443042,0.,-49.4964563951278));
#539=CARTESIAN_POINT('Origin',(-44.4903773005542,0.,-49.4964563951278));
#540=CARTESIAN_POINT('',(-44.4903773005542,0.,-49.4964563951278));
#541=CARTESIAN_POINT('',(-44.4903773005542,0.,-49.4964563951278));
#542=CARTESIAN_POINT('',(-44.4903773005542,2.2,-49.4964563951278));
#543=CARTESIAN_POINT('',(-44.4903773005542,2.2,-49.4964563951278));
#544=CARTESIAN_POINT('',(-44.4903773005542,0.,-49.4964563951278));
#545=CARTESIAN_POINT('Origin',(-44.4903773005542,0.,-41.7842656399194));
#546=CARTESIAN_POINT('',(-44.4903773005542,0.,-41.7842656399194));
#547=CARTESIAN_POINT('',(-44.4903773005542,0.,-41.7842656399194));
#548=CARTESIAN_POINT('',(-44.4903773005542,2.2,-41.7842656399194));
#549=CARTESIAN_POINT('',(-44.4903773005542,2.2,-41.7842656399194));
#550=CARTESIAN_POINT('',(-44.4903773005542,0.,-41.7842656399194));
#551=CARTESIAN_POINT('Origin',(-35.5730921443042,0.,-41.7842656399194));
#552=CARTESIAN_POINT('',(-35.5730921443042,0.,-41.7842656399194));
#553=CARTESIAN_POINT('',(-35.5730921443042,2.2,-41.7842656399194));
#554=CARTESIAN_POINT('Origin',(-31.4761845922208,0.,-31.6618860826278));
#555=CARTESIAN_POINT('',(-31.4761845922208,0.,-31.6618860826278));
#556=CARTESIAN_POINT('',(-31.4761845922208,0.,-22.5037887518986));
#557=CARTESIAN_POINT('',(-31.4761845922208,0.,-31.6618860826278));
#558=CARTESIAN_POINT('',(-31.4761845922208,2.2,-22.5037887518986));
#559=CARTESIAN_POINT('',(-31.4761845922208,0.,-22.5037887518986));
#560=CARTESIAN_POINT('',(-31.4761845922208,2.2,-31.6618860826278));
#561=CARTESIAN_POINT('',(-31.4761845922208,2.2,-31.6618860826278));
#562=CARTESIAN_POINT('',(-31.4761845922208,0.,-31.6618860826278));
#563=CARTESIAN_POINT('Origin',(-50.2745213762657,0.,-31.6618860826278));
#564=CARTESIAN_POINT('',(-50.2745213762657,0.,-31.6618860826278));
#565=CARTESIAN_POINT('',(-50.2745213762657,0.,-31.6618860826278));
#566=CARTESIAN_POINT('',(-50.2745213762657,2.2,-31.6618860826278));
#567=CARTESIAN_POINT('',(-50.2745213762657,2.2,-31.6618860826278));
#568=CARTESIAN_POINT('',(-50.2745213762657,0.,-31.6618860826278));
#569=CARTESIAN_POINT('Origin',(-50.2745213762657,0.,-22.5037887518986));
#570=CARTESIAN_POINT('',(-50.2745213762657,0.,-22.5037887518986));
#571=CARTESIAN_POINT('',(-50.2745213762657,0.,-22.5037887518986));
#572=CARTESIAN_POINT('',(-50.2745213762657,2.2,-22.5037887518986));
#573=CARTESIAN_POINT('',(-50.2745213762657,2.2,-22.5037887518986));
#574=CARTESIAN_POINT('',(-50.2745213762657,0.,-22.5037887518986));
#575=CARTESIAN_POINT('Origin',(-31.4761845922208,0.,-22.5037887518986));
#576=CARTESIAN_POINT('',(-31.4761845922208,0.,-22.5037887518986));
#577=CARTESIAN_POINT('',(-31.4761845922208,2.2,-22.5037887518986));
#578=CARTESIAN_POINT('Origin',(-35.0598341478703,0.,-34.1409155658163));
#579=CARTESIAN_POINT('',(-35.059428407325,0.,-66.1409184719507));
#580=CARTESIAN_POINT('',(-3.05983123935626,0.,-34.140804539659));
#581=CARTESIAN_POINT('Origin',(-35.0598341478703,0.,-34.1409155658163));
#582=CARTESIAN_POINT('',(-35.059428407325,2.2,-66.1409184719507));
#583=CARTESIAN_POINT('',(-35.059428407325,0.,-66.1409184719507));
#584=CARTESIAN_POINT('',(-3.05983123935626,2.2,-34.140804539659));
#585=CARTESIAN_POINT('Origin',(-35.0598341478703,2.2,-34.1409155658163));
#586=CARTESIAN_POINT('',(-3.05983123935626,0.,-34.140804539659));
#587=CARTESIAN_POINT('Origin',(-35.0598341478703,0.,-34.1406935135017));
#588=CARTESIAN_POINT('',(-35.059428407325,0.,-2.14069060736734));
#589=CARTESIAN_POINT('Origin',(-35.0598341478703,0.,-34.1406935135017));
#590=CARTESIAN_POINT('',(-35.059428407325,2.2,-2.14069060736734));
#591=CARTESIAN_POINT('Origin',(-35.0598341478703,2.2,-34.1406935135017));
#592=CARTESIAN_POINT('',(-35.059428407325,0.,-2.14069060736734));
#593=CARTESIAN_POINT('Origin',(-35.0595394311026,0.,-34.1406935158814));
#594=CARTESIAN_POINT('',(-67.0595423396167,0.,-34.140804539659));
#595=CARTESIAN_POINT('Origin',(-35.0595394311026,0.,-34.1406935158814));
#596=CARTESIAN_POINT('',(-67.0595423396167,2.2,-34.140804539659));
#597=CARTESIAN_POINT('Origin',(-35.0595394311026,2.2,-34.1406935158814));
#598=CARTESIAN_POINT('',(-67.0595423396167,0.,-34.140804539659));
#599=CARTESIAN_POINT('Origin',(-35.0595394311026,0.,-34.1409155634366));
#600=CARTESIAN_POINT('Origin',(-35.0595394311026,0.,-34.1409155634366));
#601=CARTESIAN_POINT('Origin',(-35.0595394311026,2.2,-34.1409155634366));
#602=CARTESIAN_POINT('Origin',(-35.0596867894865,2.2,-34.140804539659));
#603=CARTESIAN_POINT('Origin',(-35.0596867894865,0.,-34.140804539659));
#604=UNCERTAINTY_MEASURE_WITH_UNIT(LENGTH_MEASURE(0.01),#608,
'DISTANCE_ACCURACY_VALUE',
'Maximum model space distance between geometric entities at asserted c
onnectivities');
#605=UNCERTAINTY_MEASURE_WITH_UNIT(LENGTH_MEASURE(0.01),#608,
'DISTANCE_ACCURACY_VALUE',
'Maximum model space distance between geometric entities at asserted c
onnectivities');
#606=(
GEOMETRIC_REPRESENTATION_CONTEXT(3)
GLOBAL_UNCERTAINTY_ASSIGNED_CONTEXT((#604))
GLOBAL_UNIT_ASSIGNED_CONTEXT((#608,#610,#611))
REPRESENTATION_CONTEXT('','3D')
);
#607=(
GEOMETRIC_REPRESENTATION_CONTEXT(3)
GLOBAL_UNCERTAINTY_ASSIGNED_CONTEXT((#605))
GLOBAL_UNIT_ASSIGNED_CONTEXT((#608,#610,#611))
REPRESENTATION_CONTEXT('','3D')
);
#608=(
LENGTH_UNIT()
NAMED_UNIT(*)
SI_UNIT(.MILLI.,.METRE.)
);
#609=(
LENGTH_UNIT()
NAMED_UNIT(*)
SI_UNIT($,.METRE.)
);
#610=(
NAMED_UNIT(*)
PLANE_ANGLE_UNIT()
SI_UNIT($,.RADIAN.)
);
#611=(
NAMED_UNIT(*)
SI_UNIT($,.STERADIAN.)
SOLID_ANGLE_UNIT()
);
#612=SHAPE_DEFINITION_REPRESENTATION(#613,#614);
#613=PRODUCT_DEFINITION_SHAPE('',$,#616);
#614=SHAPE_REPRESENTATION('',(#368),#606);
#615=PRODUCT_DEFINITION_CONTEXT('part definition',#620,'design');
#616=PRODUCT_DEFINITION('lid circuit cover','lid circuit cover v1',#617,
#615);
#617=PRODUCT_DEFINITION_FORMATION('',$,#622);
#618=PRODUCT_RELATED_PRODUCT_CATEGORY('lid circuit cover v1',
'lid circuit cover v1',(#622));
#619=APPLICATION_PROTOCOL_DEFINITION('international standard',
'automotive_design',2009,#620);
#620=APPLICATION_CONTEXT(
'Core Data for Automotive Mechanical Design Process');
#621=PRODUCT_CONTEXT('part definition',#620,'mechanical');
#622=PRODUCT('lid circuit cover','lid circuit cover v1',$,(#621));
#623=PRESENTATION_STYLE_ASSIGNMENT((#624));
#624=SURFACE_STYLE_USAGE(.BOTH.,#625);
#625=SURFACE_SIDE_STYLE('',(#626));
#626=SURFACE_STYLE_FILL_AREA(#627);
#627=FILL_AREA_STYLE('Steel - Satin',(#628));
#628=FILL_AREA_STYLE_COLOUR('Steel - Satin',#629);
#629=COLOUR_RGB('Steel - Satin',0.627450980392157,0.627450980392157,0.627450980392157);
ENDSEC;
END-ISO-10303-21;
